ISO-10303-21;
HEADER;
/* Generated by software containing ST-Developer
 * from STEP Tools, Inc. (www.steptools.com) 
 */

FILE_DESCRIPTION(
/* description */ (''),
/* implementation_level */ '2;1');

FILE_NAME(
/* name */ 
'Z:/Modular Solution/A-Profile System/Parts/63-100-GN/CAD/63-100-GN v2.
step',
/* time_stamp */ '2020-11-12T08:29:49-05:00',
/* author */ (''),
/* organization */ (''),
/* preprocessor_version */ 'ST-DEVELOPER v18.1',
/* originating_system */ 'Autodesk Translation Framework v9.3.0.1241',
/* authorisation */ '');

FILE_SCHEMA (('AUTOMOTIVE_DESIGN { 1 0 10303 214 3 1 1 }'));
ENDSEC;

DATA;
#10=MECHANICAL_DESIGN_GEOMETRIC_PRESENTATION_REPRESENTATION('',(#14,#15),
#184);
#11=SHAPE_REPRESENTATION_RELATIONSHIP('SRR','None',#194,#12);
#12=ADVANCED_BREP_SHAPE_REPRESENTATION('',(#13),#183);
#13=MANIFOLD_SOLID_BREP('Body1',#108);
#14=STYLED_ITEM('',(#205),#107);
#15=STYLED_ITEM('',(#204),#13);
#16=FACE_OUTER_BOUND('',#22,.T.);
#17=FACE_OUTER_BOUND('',#23,.T.);
#18=FACE_OUTER_BOUND('',#24,.T.);
#19=FACE_OUTER_BOUND('',#25,.T.);
#20=FACE_OUTER_BOUND('',#26,.T.);
#21=FACE_OUTER_BOUND('',#27,.T.);
#22=EDGE_LOOP('',(#72,#73,#74,#75));
#23=EDGE_LOOP('',(#76,#77,#78,#79));
#24=EDGE_LOOP('',(#80,#81,#82,#83));
#25=EDGE_LOOP('',(#84,#85,#86,#87));
#26=EDGE_LOOP('',(#88,#89,#90,#91));
#27=EDGE_LOOP('',(#92,#93,#94,#95));
#28=LINE('',#158,#40);
#29=LINE('',#160,#41);
#30=LINE('',#162,#42);
#31=LINE('',#163,#43);
#32=LINE('',#167,#44);
#33=LINE('',#169,#45);
#34=LINE('',#171,#46);
#35=LINE('',#172,#47);
#36=LINE('',#174,#48);
#37=LINE('',#175,#49);
#38=LINE('',#177,#50);
#39=LINE('',#179,#51);
#40=VECTOR('',#132,0.393700787401575);
#41=VECTOR('',#133,0.393700787401575);
#42=VECTOR('',#134,0.393700787401575);
#43=VECTOR('',#135,0.393700787401575);
#44=VECTOR('',#138,0.393700787401575);
#45=VECTOR('',#139,0.393700787401575);
#46=VECTOR('',#140,0.393700787401575);
#47=VECTOR('',#141,0.393700787401575);
#48=VECTOR('',#144,0.393700787401575);
#49=VECTOR('',#145,0.393700787401575);
#50=VECTOR('',#148,0.393700787401575);
#51=VECTOR('',#151,0.393700787401575);
#52=VERTEX_POINT('',#156);
#53=VERTEX_POINT('',#157);
#54=VERTEX_POINT('',#159);
#55=VERTEX_POINT('',#161);
#56=VERTEX_POINT('',#165);
#57=VERTEX_POINT('',#166);
#58=VERTEX_POINT('',#168);
#59=VERTEX_POINT('',#170);
#60=EDGE_CURVE('',#52,#53,#28,.T.);
#61=EDGE_CURVE('',#53,#54,#29,.T.);
#62=EDGE_CURVE('',#54,#55,#30,.T.);
#63=EDGE_CURVE('',#55,#52,#31,.T.);
#64=EDGE_CURVE('',#56,#57,#32,.T.);
#65=EDGE_CURVE('',#57,#58,#33,.T.);
#66=EDGE_CURVE('',#58,#59,#34,.T.);
#67=EDGE_CURVE('',#59,#56,#35,.T.);
#68=EDGE_CURVE('',#55,#58,#36,.T.);
#69=EDGE_CURVE('',#52,#57,#37,.T.);
#70=EDGE_CURVE('',#54,#59,#38,.T.);
#71=EDGE_CURVE('',#53,#56,#39,.T.);
#72=ORIENTED_EDGE('',*,*,#60,.T.);
#73=ORIENTED_EDGE('',*,*,#61,.T.);
#74=ORIENTED_EDGE('',*,*,#62,.T.);
#75=ORIENTED_EDGE('',*,*,#63,.T.);
#76=ORIENTED_EDGE('',*,*,#64,.T.);
#77=ORIENTED_EDGE('',*,*,#65,.T.);
#78=ORIENTED_EDGE('',*,*,#66,.T.);
#79=ORIENTED_EDGE('',*,*,#67,.T.);
#80=ORIENTED_EDGE('',*,*,#68,.T.);
#81=ORIENTED_EDGE('',*,*,#65,.F.);
#82=ORIENTED_EDGE('',*,*,#69,.F.);
#83=ORIENTED_EDGE('',*,*,#63,.F.);
#84=ORIENTED_EDGE('',*,*,#70,.T.);
#85=ORIENTED_EDGE('',*,*,#66,.F.);
#86=ORIENTED_EDGE('',*,*,#68,.F.);
#87=ORIENTED_EDGE('',*,*,#62,.F.);
#88=ORIENTED_EDGE('',*,*,#71,.T.);
#89=ORIENTED_EDGE('',*,*,#67,.F.);
#90=ORIENTED_EDGE('',*,*,#70,.F.);
#91=ORIENTED_EDGE('',*,*,#61,.F.);
#92=ORIENTED_EDGE('',*,*,#69,.T.);
#93=ORIENTED_EDGE('',*,*,#64,.F.);
#94=ORIENTED_EDGE('',*,*,#71,.F.);
#95=ORIENTED_EDGE('',*,*,#60,.F.);
#96=PLANE('',#122);
#97=PLANE('',#123);
#98=PLANE('',#124);
#99=PLANE('',#125);
#100=PLANE('',#126);
#101=PLANE('',#127);
#102=ADVANCED_FACE('',(#16),#96,.T.);
#103=ADVANCED_FACE('',(#17),#97,.F.);
#104=ADVANCED_FACE('',(#18),#98,.F.);
#105=ADVANCED_FACE('',(#19),#99,.F.);
#106=ADVANCED_FACE('',(#20),#100,.F.);
#107=ADVANCED_FACE('',(#21),#101,.F.);
#108=CLOSED_SHELL('',(#102,#103,#104,#105,#106,#107));
#109=DERIVED_UNIT_ELEMENT(#111,1.);
#110=DERIVED_UNIT_ELEMENT(#188,3.);
#111=(
MASS_UNIT()
NAMED_UNIT(*)
SI_UNIT(.KILO.,.GRAM.)
);
#112=DERIVED_UNIT((#109,#110));
#113=MEASURE_REPRESENTATION_ITEM('density measure',
POSITIVE_RATIO_MEASURE(7850.),#112);
#114=PROPERTY_DEFINITION_REPRESENTATION(#119,#116);
#115=PROPERTY_DEFINITION_REPRESENTATION(#120,#117);
#116=REPRESENTATION('material name',(#118),#183);
#117=REPRESENTATION('density',(#113),#183);
#118=DESCRIPTIVE_REPRESENTATION_ITEM('Steel','Steel');
#119=PROPERTY_DEFINITION('material property','material name',#196);
#120=PROPERTY_DEFINITION('material property','density of part',#196);
#121=AXIS2_PLACEMENT_3D('placement',#154,#128,#129);
#122=AXIS2_PLACEMENT_3D('',#155,#130,#131);
#123=AXIS2_PLACEMENT_3D('',#164,#136,#137);
#124=AXIS2_PLACEMENT_3D('',#173,#142,#143);
#125=AXIS2_PLACEMENT_3D('',#176,#146,#147);
#126=AXIS2_PLACEMENT_3D('',#178,#149,#150);
#127=AXIS2_PLACEMENT_3D('',#180,#152,#153);
#128=DIRECTION('axis',(0.,0.,1.));
#129=DIRECTION('refdir',(1.,0.,0.));
#130=DIRECTION('center_axis',(0.,1.,0.));
#131=DIRECTION('ref_axis',(0.,0.,1.));
#132=DIRECTION('',(1.,0.,0.));
#133=DIRECTION('',(0.,0.,-1.));
#134=DIRECTION('',(-1.,0.,0.));
#135=DIRECTION('',(0.,0.,1.));
#136=DIRECTION('center_axis',(0.,1.,0.));
#137=DIRECTION('ref_axis',(0.,0.,1.));
#138=DIRECTION('',(-1.,0.,0.));
#139=DIRECTION('',(0.,0.,-1.));
#140=DIRECTION('',(1.,0.,0.));
#141=DIRECTION('',(0.,0.,1.));
#142=DIRECTION('center_axis',(1.,0.,0.));
#143=DIRECTION('ref_axis',(0.,1.,0.));
#144=DIRECTION('',(0.,-1.,0.));
#145=DIRECTION('',(0.,-1.,0.));
#146=DIRECTION('center_axis',(0.,0.,1.));
#147=DIRECTION('ref_axis',(0.,-1.,0.));
#148=DIRECTION('',(0.,-1.,0.));
#149=DIRECTION('center_axis',(-1.,0.,0.));
#150=DIRECTION('ref_axis',(0.,-1.,0.));
#151=DIRECTION('',(0.,-1.,0.));
#152=DIRECTION('center_axis',(0.,0.,-1.));
#153=DIRECTION('ref_axis',(0.,1.,0.));
#154=CARTESIAN_POINT('',(0.,0.,0.));
#155=CARTESIAN_POINT('Origin',(24.,96.,0.118110236220472));
#156=CARTESIAN_POINT('',(0.,96.,0.236220472440945));
#157=CARTESIAN_POINT('',(48.,96.,0.236220472440945));
#158=CARTESIAN_POINT('',(24.,96.,0.236220472440945));
#159=CARTESIAN_POINT('',(48.,96.,0.));
#160=CARTESIAN_POINT('',(48.,96.,0.118110236220472));
#161=CARTESIAN_POINT('',(0.,96.,0.));
#162=CARTESIAN_POINT('',(24.,96.,0.));
#163=CARTESIAN_POINT('',(0.,96.,0.118110236220472));
#164=CARTESIAN_POINT('Origin',(24.,0.,0.118110236220472));
#165=CARTESIAN_POINT('',(48.,0.,0.236220472440945));
#166=CARTESIAN_POINT('',(0.,0.,0.236220472440945));
#167=CARTESIAN_POINT('',(24.,0.,0.236220472440945));
#168=CARTESIAN_POINT('',(0.,0.,0.));
#169=CARTESIAN_POINT('',(0.,0.,0.118110236220472));
#170=CARTESIAN_POINT('',(48.,0.,0.));
#171=CARTESIAN_POINT('',(24.,0.,0.));
#172=CARTESIAN_POINT('',(48.,0.,0.118110236220472));
#173=CARTESIAN_POINT('Origin',(0.,48.,0.118110236220472));
#174=CARTESIAN_POINT('',(0.,48.,0.));
#175=CARTESIAN_POINT('',(0.,48.,0.236220472440945));
#176=CARTESIAN_POINT('Origin',(24.,48.,0.));
#177=CARTESIAN_POINT('',(48.,48.,0.));
#178=CARTESIAN_POINT('Origin',(48.,48.,0.118110236220472));
#179=CARTESIAN_POINT('',(48.,48.,0.236220472440945));
#180=CARTESIAN_POINT('Origin',(24.,48.,0.236220472440945));
#181=UNCERTAINTY_MEASURE_WITH_UNIT(LENGTH_MEASURE(0.000393700787401575),
#186,'DISTANCE_ACCURACY_VALUE',
'Maximum model space distance between geometric entities at asserted c
onnectivities');
#182=UNCERTAINTY_MEASURE_WITH_UNIT(LENGTH_MEASURE(0.000393700787401575),
#186,'DISTANCE_ACCURACY_VALUE',
'Maximum model space distance between geometric entities at asserted c
onnectivities');
#183=(
GEOMETRIC_REPRESENTATION_CONTEXT(3)
GLOBAL_UNCERTAINTY_ASSIGNED_CONTEXT((#181))
GLOBAL_UNIT_ASSIGNED_CONTEXT((#186,#190,#191))
REPRESENTATION_CONTEXT('','3D')
);
#184=(
GEOMETRIC_REPRESENTATION_CONTEXT(3)
GLOBAL_UNCERTAINTY_ASSIGNED_CONTEXT((#182))
GLOBAL_UNIT_ASSIGNED_CONTEXT((#186,#190,#191))
REPRESENTATION_CONTEXT('','3D')
);
#185=DIMENSIONAL_EXPONENTS(1.,0.,0.,0.,0.,0.,0.);
#186=(
CONVERSION_BASED_UNIT('inch',#189)
LENGTH_UNIT()
NAMED_UNIT(#185)
);
#187=(
LENGTH_UNIT()
NAMED_UNIT(*)
SI_UNIT(.MILLI.,.METRE.)
);
#188=(
LENGTH_UNIT()
NAMED_UNIT(*)
SI_UNIT($,.METRE.)
);
#189=LENGTH_MEASURE_WITH_UNIT(LENGTH_MEASURE(25.4),#187);
#190=(
NAMED_UNIT(*)
PLANE_ANGLE_UNIT()
SI_UNIT($,.RADIAN.)
);
#191=(
NAMED_UNIT(*)
SI_UNIT($,.STERADIAN.)
SOLID_ANGLE_UNIT()
);
#192=SHAPE_DEFINITION_REPRESENTATION(#193,#194);
#193=PRODUCT_DEFINITION_SHAPE('',$,#196);
#194=SHAPE_REPRESENTATION('',(#121),#183);
#195=PRODUCT_DEFINITION_CONTEXT('part definition',#200,'design');
#196=PRODUCT_DEFINITION('63-100-GN','63-100-GN v2',#197,#195);
#197=PRODUCT_DEFINITION_FORMATION('',$,#202);
#198=PRODUCT_RELATED_PRODUCT_CATEGORY('63-100-GN v2','63-100-GN v2',(#202));
#199=APPLICATION_PROTOCOL_DEFINITION('international standard',
'automotive_design',2009,#200);
#200=APPLICATION_CONTEXT(
'Core Data for Automotive Mechanical Design Process');
#201=PRODUCT_CONTEXT('part definition',#200,'mechanical');
#202=PRODUCT('63-100-GN','63-100-GN v2',$,(#201));
#203=PRESENTATION_STYLE_ASSIGNMENT((#206));
#204=PRESENTATION_STYLE_ASSIGNMENT((#207));
#205=PRESENTATION_STYLE_ASSIGNMENT((#208));
#206=SURFACE_STYLE_USAGE(.BOTH.,#209);
#207=SURFACE_STYLE_USAGE(.BOTH.,#210);
#208=SURFACE_STYLE_USAGE(.BOTH.,#211);
#209=SURFACE_SIDE_STYLE('',(#212));
#210=SURFACE_SIDE_STYLE('',(#213));
#211=SURFACE_SIDE_STYLE('',(#214));
#212=SURFACE_STYLE_FILL_AREA(#215);
#213=SURFACE_STYLE_FILL_AREA(#216);
#214=SURFACE_STYLE_FILL_AREA(#217);
#215=FILL_AREA_STYLE('Steel - Satin',(#218));
#216=FILL_AREA_STYLE('Paint - Enamel Glossy (Black)',(#219));
#217=FILL_AREA_STYLE('Plastic - Glossy (Green)',(#220));
#218=FILL_AREA_STYLE_COLOUR('Steel - Satin',#221);
#219=FILL_AREA_STYLE_COLOUR('Paint - Enamel Glossy (Black)',#222);
#220=FILL_AREA_STYLE_COLOUR('Plastic - Glossy (Green)',#223);
#221=COLOUR_RGB('Steel - Satin',0.627450980392157,0.627450980392157,0.627450980392157);
#222=COLOUR_RGB('Paint - Enamel Glossy (Black)',0.0980392156862745,0.0980392156862745,
0.0980392156862745);
#223=COLOUR_RGB('Plastic - Glossy (Green)',0.164705882352941,0.470588235294118,
0.176470588235294);
ENDSEC;
END-ISO-10303-21;
